ISO-10303-21;
HEADER;
/****************************************************************
 * Generated by software with PDE/Lib inside                    *
 * PDE/Lib Version 3.2.6, created Mon Nov 19, 2001 at 18:43:38  *
 * International Technegroup Inc. (www.iti-oh.com)              *
 ****************************************************************/
FILE_DESCRIPTION((''),'2;1');
FILE_NAME('B:\\MITARBEITER\\Gembarski\\Inventor\\TEMP\\Konvertierungsformate\\COB_Spezial_Zubehoer\\STP\\CRM CX D.stp','2007-01-02T17:40:50',('gembarski'),(''),'Autodesk Inventor 7','Autodesk Inventor 7','');
FILE_SCHEMA(('AUTOMOTIVE_DESIGN { 1 0 10303 214 1 1 1 1 }'));
ENDSEC;
DATA;
#5=APPLICATION_CONTEXT('automotive design');
#6=APPLICATION_PROTOCOL_DEFINITION('Draft International Standard','automotive_design',1998,#5);
#7=PRODUCT_CONTEXT('None',#5,'mechanical');
#8=PRODUCT('CRM CX D','CRM CX D','None',(#7));
#9=PRODUCT_RELATED_PRODUCT_CATEGORY('part','description',(#8));
#10=PRODUCT_DEFINITION_FORMATION('None','None',#8);
#11=PRODUCT_DEFINITION_CONTEXT('part definition',#5,'design');
#12=PRODUCT_DEFINITION('None','None',#10,#11);
#18=(NAMED_UNIT(*)PLANE_ANGLE_UNIT()SI_UNIT($,.RADIAN.));
#19=DIMENSIONAL_EXPONENTS(0.0,0.0,0.0,0.0,0.0,0.0,0.0);
#20=PLANE_ANGLE_MEASURE_WITH_UNIT(PLANE_ANGLE_MEASURE(0.017453292500000),#18);
#24=(CONVERSION_BASED_UNIT('DEGREE',#20)NAMED_UNIT(#19)PLANE_ANGLE_UNIT());
#28=(NAMED_UNIT(*)SI_UNIT($,.STERADIAN.)SOLID_ANGLE_UNIT());
#32=(LENGTH_UNIT()NAMED_UNIT(*)SI_UNIT(.MILLI.,.METRE.));
#34=UNCERTAINTY_MEASURE_WITH_UNIT(LENGTH_MEASURE(0.000001000000000),#32,'DISTANCE_ACCURACY_VALUE','');
#36=(GEOMETRIC_REPRESENTATION_CONTEXT(3)GLOBAL_UNCERTAINTY_ASSIGNED_CONTEXT((#34))GLOBAL_UNIT_ASSIGNED_CONTEXT((#24,#28,#32))REPRESENTATION_CONTEXT('None','None'));
#37=AXIS2_PLACEMENT_3D('',#38,#39,#40);
#38=CARTESIAN_POINT('',(0.0,0.0,0.0));
#39=DIRECTION('',(0.0,0.0,1.0));
#40=DIRECTION('',(1.0,0.0,0.0));
#41=SHAPE_REPRESENTATION('',(#37),#36);
#42=PRODUCT_DEFINITION_SHAPE('','',#12);
#43=SHAPE_DEFINITION_REPRESENTATION(#42,#41);
#44=CARTESIAN_POINT('',(-12.850000000000009,0.0,0.0));
#45=DIRECTION('',(1.0,0.0,0.0));
#46=DIRECTION('',(0.0,1.0,0.0));
#47=AXIS2_PLACEMENT_3D('',#44,#45,#46);
#48=CONICAL_SURFACE('',#47,1.849999999999999,45.000000000000199);
#49=CARTESIAN_POINT('',(-13.000000000000007,1.699999999999999,0.0));
#50=VERTEX_POINT('',#49);
#51=CARTESIAN_POINT('',(-12.700000000000010,1.999999999999999,0.0));
#52=VERTEX_POINT('',#51);
#53=CARTESIAN_POINT('',(-13.000000000000007,1.699999999999999,0.0));
#54=DIRECTION('',(0.707106781186544,0.707106781186551,0.0));
#55=VECTOR('',#54,0.424264068711927);
#56=LINE('',#53,#55);
#57=EDGE_CURVE('',#50,#52,#56,.T.);
#58=ORIENTED_EDGE('',*,*,#57,.F.);
#59=CARTESIAN_POINT('',(-13.000000000000007,-1.699999999999999,2.081831E-016));
#60=VERTEX_POINT('',#59);
#61=CARTESIAN_POINT('',(-13.000000000000007,0.0,0.0));
#62=DIRECTION('',(1.0,0.0,0.0));
#63=DIRECTION('',(0.0,1.0,0.0));
#64=AXIS2_PLACEMENT_3D('',#61,#62,#63);
#65=CIRCLE('',#64,1.699999999999999);
#66=EDGE_CURVE('',#50,#60,#65,.T.);
#67=ORIENTED_EDGE('',*,*,#66,.T.);
#68=CARTESIAN_POINT('',(-12.700000000000010,-1.999999999999999,2.449213E-016));
#69=VERTEX_POINT('',#68);
#70=CARTESIAN_POINT('',(-12.700000000000010,-1.999999999999999,2.449213E-016));
#71=DIRECTION('',(-0.707106781186544,0.707106781186551,-8.659275E-017));
#72=VECTOR('',#71,0.424264068711927);
#73=LINE('',#70,#72);
#74=EDGE_CURVE('',#69,#60,#73,.T.);
#75=ORIENTED_EDGE('',*,*,#74,.F.);
#76=CARTESIAN_POINT('',(-12.700000000000010,0.0,0.0));
#77=DIRECTION('',(1.0,0.0,0.0));
#78=DIRECTION('',(0.0,1.0,0.0));
#79=AXIS2_PLACEMENT_3D('',#76,#77,#78);
#80=CIRCLE('',#79,1.999999999999999);
#81=EDGE_CURVE('',#52,#69,#80,.T.);
#82=ORIENTED_EDGE('',*,*,#81,.F.);
#83=EDGE_LOOP('',(#58,#67,#75,#82));
#84=FACE_OUTER_BOUND('',#83,.T.);
#85=ADVANCED_FACE('',(#84),#48,.T.);
#86=CARTESIAN_POINT('',(-15.466506350946126,0.0,0.0));
#87=DIRECTION('',(1.0,0.0,0.0));
#88=DIRECTION('',(0.0,1.0,0.0));
#89=AXIS2_PLACEMENT_3D('',#86,#87,#88);
#90=CYLINDRICAL_SURFACE('',#89,1.250000000000002);
#91=CARTESIAN_POINT('',(-17.933012701892242,1.250000000000002,0.0));
#92=VERTEX_POINT('',#91);
#93=CARTESIAN_POINT('',(-13.000000000000007,1.250000000000002,0.0));
#94=VERTEX_POINT('',#93);
#95=CARTESIAN_POINT('',(-17.933012701892242,1.250000000000002,0.0));
#96=DIRECTION('',(1.0,0.0,0.0));
#97=VECTOR('',#96,4.933012701892235);
#98=LINE('',#95,#97);
#99=EDGE_CURVE('',#92,#94,#98,.T.);
#100=ORIENTED_EDGE('',*,*,#99,.F.);
#101=CARTESIAN_POINT('',(-17.933012701892245,-1.250000000000002,1.530758E-016));
#102=VERTEX_POINT('',#101);
#103=CARTESIAN_POINT('',(-17.933012701892242,0.0,0.0));
#104=DIRECTION('',(1.0,0.0,0.0));
#105=DIRECTION('',(0.0,1.0,0.0));
#106=AXIS2_PLACEMENT_3D('',#103,#104,#105);
#107=CIRCLE('',#106,1.250000000000002);
#108=EDGE_CURVE('',#92,#102,#107,.T.);
#109=ORIENTED_EDGE('',*,*,#108,.T.);
#110=CARTESIAN_POINT('',(-13.000000000000007,-1.250000000000002,1.530758E-016));
#111=VERTEX_POINT('',#110);
#112=CARTESIAN_POINT('',(-13.000000000000007,-1.250000000000002,1.530758E-016));
#113=DIRECTION('',(-1.0,0.0,0.0));
#114=VECTOR('',#113,4.933012701892238);
#115=LINE('',#112,#114);
#116=EDGE_CURVE('',#111,#102,#115,.T.);
#117=ORIENTED_EDGE('',*,*,#116,.F.);
#118=CARTESIAN_POINT('',(-13.000000000000007,0.0,0.0));
#119=DIRECTION('',(1.0,0.0,0.0));
#120=DIRECTION('',(0.0,1.0,0.0));
#121=AXIS2_PLACEMENT_3D('',#118,#119,#120);
#122=CIRCLE('',#121,1.250000000000002);
#123=EDGE_CURVE('',#94,#111,#122,.T.);
#124=ORIENTED_EDGE('',*,*,#123,.F.);
#125=EDGE_LOOP('',(#100,#109,#117,#124));
#126=FACE_OUTER_BOUND('',#125,.T.);
#127=ADVANCED_FACE('',(#126),#90,.T.);
#128=CARTESIAN_POINT('',(-17.966506350946126,0.0,0.0));
#129=DIRECTION('',(-1.0,0.0,0.0));
#130=DIRECTION('',(0.0,1.0,0.0));
#131=AXIS2_PLACEMENT_3D('',#128,#129,#130);
#132=CONICAL_SURFACE('',#131,1.375000000000002,75.000000000003268);
#133=CARTESIAN_POINT('',(-18.000000000000007,1.500000000000003,0.0));
#134=VERTEX_POINT('',#133);
#135=CARTESIAN_POINT('',(-18.000000000000007,1.500000000000003,0.0));
#136=DIRECTION('',(0.258819045102464,-0.965925826289083,0.0));
#137=VECTOR('',#136,0.258819045102518);
#138=LINE('',#135,#137);
#139=EDGE_CURVE('',#134,#92,#138,.T.);
#140=ORIENTED_EDGE('',*,*,#139,.F.);
#141=CARTESIAN_POINT('',(-18.000000000000007,-1.500000000000003,1.836910E-016));
#142=VERTEX_POINT('',#141);
#143=CARTESIAN_POINT('',(-18.000000000000007,0.0,0.0));
#144=DIRECTION('',(1.0,0.0,0.0));
#145=DIRECTION('',(0.0,1.0,0.0));
#146=AXIS2_PLACEMENT_3D('',#143,#144,#145);
#147=CIRCLE('',#146,1.500000000000003);
#148=EDGE_CURVE('',#134,#142,#147,.T.);
#149=ORIENTED_EDGE('',*,*,#148,.T.);
#150=CARTESIAN_POINT('',(-17.933012701892245,-1.250000000000002,1.530758E-016));
#151=DIRECTION('',(-0.258819045102451,-0.965925826289087,1.182879E-016));
#152=VECTOR('',#151,0.258819045102517);
#153=LINE('',#150,#152);
#154=EDGE_CURVE('',#102,#142,#153,.T.);
#155=ORIENTED_EDGE('',*,*,#154,.F.);
#156=ORIENTED_EDGE('',*,*,#108,.F.);
#157=EDGE_LOOP('',(#140,#149,#155,#156));
#158=FACE_OUTER_BOUND('',#157,.T.);
#159=ADVANCED_FACE('',(#158),#132,.T.);
#160=CARTESIAN_POINT('',(-20.100000000000009,0.0,0.0));
#161=DIRECTION('',(1.0,0.0,0.0));
#162=DIRECTION('',(0.0,1.0,0.0));
#163=AXIS2_PLACEMENT_3D('',#160,#161,#162);
#164=CYLINDRICAL_SURFACE('',#163,1.500000000000003);
#165=CARTESIAN_POINT('',(-22.200000000000010,1.500000000000002,0.0));
#166=VERTEX_POINT('',#165);
#167=CARTESIAN_POINT('',(-22.200000000000010,1.500000000000002,0.0));
#168=DIRECTION('',(1.0,0.0,0.0));
#169=VECTOR('',#168,4.200000000000003);
#170=LINE('',#167,#169);
#171=EDGE_CURVE('',#166,#134,#170,.T.);
#172=ORIENTED_EDGE('',*,*,#171,.F.);
#173=CARTESIAN_POINT('',(-22.200000000000010,-1.500000000000002,1.836910E-016));
#174=VERTEX_POINT('',#173);
#175=CARTESIAN_POINT('',(-22.200000000000010,0.0,0.0));
#176=DIRECTION('',(1.0,0.0,0.0));
#177=DIRECTION('',(0.0,1.0,0.0));
#178=AXIS2_PLACEMENT_3D('',#175,#176,#177);
#179=CIRCLE('',#178,1.500000000000002);
#180=EDGE_CURVE('',#166,#174,#179,.T.);
#181=ORIENTED_EDGE('',*,*,#180,.T.);
#182=CARTESIAN_POINT('',(-18.000000000000007,-1.500000000000003,1.836910E-016));
#183=DIRECTION('',(-1.0,0.0,0.0));
#184=VECTOR('',#183,4.200000000000003);
#185=LINE('',#182,#184);
#186=EDGE_CURVE('',#142,#174,#185,.T.);
#187=ORIENTED_EDGE('',*,*,#186,.F.);
#188=ORIENTED_EDGE('',*,*,#148,.F.);
#189=EDGE_LOOP('',(#172,#181,#187,#188));
#190=FACE_OUTER_BOUND('',#189,.T.);
#191=ADVANCED_FACE('',(#190),#164,.T.);
#192=CARTESIAN_POINT('',(-22.350000000000009,0.0,0.0));
#193=DIRECTION('',(1.0,0.0,0.0));
#194=DIRECTION('',(0.0,1.0,0.0));
#195=AXIS2_PLACEMENT_3D('',#192,#193,#194);
#196=CONICAL_SURFACE('',#195,1.350000000000003,45.000000000000448);
#197=CARTESIAN_POINT('',(-22.500000000000004,1.200000000000004,0.0));
#198=VERTEX_POINT('',#197);
#199=CARTESIAN_POINT('',(-22.500000000000004,1.200000000000004,0.0));
#200=DIRECTION('',(0.707106781186542,0.707106781186553,0.0));
#201=VECTOR('',#200,0.424264068711923);
#202=LINE('',#199,#201);
#203=EDGE_CURVE('',#198,#166,#202,.T.);
#204=ORIENTED_EDGE('',*,*,#203,.F.);
#205=CARTESIAN_POINT('',(-22.500000000000000,-1.200000000000004,1.469528E-016));
#206=VERTEX_POINT('',#205);
#207=CARTESIAN_POINT('',(-22.500000000000004,0.0,0.0));
#208=DIRECTION('',(1.0,0.0,0.0));
#209=DIRECTION('',(0.0,1.0,0.0));
#210=AXIS2_PLACEMENT_3D('',#207,#208,#209);
#211=CIRCLE('',#210,1.200000000000004);
#212=EDGE_CURVE('',#198,#206,#211,.T.);
#213=ORIENTED_EDGE('',*,*,#212,.T.);
#214=CARTESIAN_POINT('',(-22.200000000000010,-1.500000000000002,1.836910E-016));
#215=DIRECTION('',(-0.707106781186538,0.707106781186557,-8.659275E-017));
#216=VECTOR('',#215,0.424264068711920);
#217=LINE('',#214,#216);
#218=EDGE_CURVE('',#174,#206,#217,.T.);
#219=ORIENTED_EDGE('',*,*,#218,.F.);
#220=ORIENTED_EDGE('',*,*,#180,.F.);
#221=EDGE_LOOP('',(#204,#213,#219,#220));
#222=FACE_OUTER_BOUND('',#221,.T.);
#223=ADVANCED_FACE('',(#222),#196,.T.);
#224=CARTESIAN_POINT('',(-6.350000000000005,0.0,0.0));
#225=DIRECTION('',(1.0,0.0,0.0));
#226=DIRECTION('',(0.0,1.0,0.0));
#227=AXIS2_PLACEMENT_3D('',#224,#225,#226);
#228=CYLINDRICAL_SURFACE('',#227,2.000000000000000);
#229=CARTESIAN_POINT('',(-2.000000000000000,2.000000000000000,-2.449213E-016));
#230=VERTEX_POINT('',#229);
#231=CARTESIAN_POINT('',(-12.700000000000010,1.999999999999999,0.0));
#232=DIRECTION('',(1.0,0.0,0.0));
#233=VECTOR('',#232,10.700000000000010);
#234=LINE('',#231,#233);
#235=EDGE_CURVE('',#52,#230,#234,.T.);
#236=ORIENTED_EDGE('',*,*,#235,.F.);
#237=ORIENTED_EDGE('',*,*,#81,.T.);
#238=CARTESIAN_POINT('',(-2.000000000000000,-2.000000000000000,2.449213E-016));
#239=VERTEX_POINT('',#238);
#240=CARTESIAN_POINT('',(-2.000000000000000,-2.000000000000000,2.449213E-016));
#241=DIRECTION('',(-1.0,0.0,0.0));
#242=VECTOR('',#241,10.700000000000010);
#243=LINE('',#240,#242);
#244=EDGE_CURVE('',#239,#69,#243,.T.);
#245=ORIENTED_EDGE('',*,*,#244,.F.);
#246=CARTESIAN_POINT('',(-2.0,-1.959591794226543,0.400000000000000));
#247=VERTEX_POINT('',#246);
#248=CARTESIAN_POINT('',(-2.000000000000001,0.0,0.0));
#249=DIRECTION('',(1.0,0.0,0.0));
#250=DIRECTION('',(0.0,1.0,0.0));
#251=AXIS2_PLACEMENT_3D('',#248,#249,#250);
#252=CIRCLE('',#251,2.000000000000000);
#253=EDGE_CURVE('',#247,#239,#252,.T.);
#254=ORIENTED_EDGE('',*,*,#253,.F.);
#255=CARTESIAN_POINT('',(-2.000000000000001,0.0,2.000000000000000));
#256=VERTEX_POINT('',#255);
#257=CARTESIAN_POINT('',(-2.000000000000001,0.0,0.0));
#258=DIRECTION('',(1.0,0.0,0.0));
#259=DIRECTION('',(0.0,1.0,0.0));
#260=AXIS2_PLACEMENT_3D('',#257,#258,#259);
#261=CIRCLE('',#260,2.000000000000000);
#262=EDGE_CURVE('',#256,#247,#261,.T.);
#263=ORIENTED_EDGE('',*,*,#262,.F.);
#264=CARTESIAN_POINT('',(-2.0,1.959591794226543,0.400000000000000));
#265=VERTEX_POINT('',#264);
#266=CARTESIAN_POINT('',(-2.000000000000001,0.0,0.0));
#267=DIRECTION('',(1.0,0.0,0.0));
#268=DIRECTION('',(0.0,1.0,0.0));
#269=AXIS2_PLACEMENT_3D('',#266,#267,#268);
#270=CIRCLE('',#269,2.000000000000000);
#271=EDGE_CURVE('',#265,#256,#270,.T.);
#272=ORIENTED_EDGE('',*,*,#271,.F.);
#273=CARTESIAN_POINT('',(-2.000000000000001,0.0,0.0));
#274=DIRECTION('',(1.0,0.0,0.0));
#275=DIRECTION('',(0.0,1.0,0.0));
#276=AXIS2_PLACEMENT_3D('',#273,#274,#275);
#277=CIRCLE('',#276,2.000000000000000);
#278=EDGE_CURVE('',#230,#265,#277,.T.);
#279=ORIENTED_EDGE('',*,*,#278,.F.);
#280=EDGE_LOOP('',(#236,#237,#245,#254,#263,#272,#279));
#281=FACE_OUTER_BOUND('',#280,.T.);
#282=ADVANCED_FACE('',(#281),#228,.T.);
#283=CARTESIAN_POINT('',(-2.000000000000001,0.0,0.0));
#284=DIRECTION('',(0.0,0.0,1.0));
#285=DIRECTION('',(1.0,0.0,0.0));
#286=AXIS2_PLACEMENT_3D('',#283,#284,#285);
#287=SPHERICAL_SURFACE('',#286,2.0);
#288=CARTESIAN_POINT('',(-2.000000000000001,0.0,-2.000000000000000));
#289=VERTEX_POINT('',#288);
#290=CARTESIAN_POINT('',(-0.040408205773458,-2.399729E-016,-0.400000000000000));
#291=VERTEX_POINT('',#290);
#292=CARTESIAN_POINT('',(-2.000000000000001,0.0,0.0));
#293=DIRECTION('',(0.0,-1.0,0.0));
#294=DIRECTION('',(0.0,0.0,1.0));
#295=AXIS2_PLACEMENT_3D('',#292,#293,#294);
#296=CIRCLE('',#295,2.0);
#297=EDGE_CURVE('',#289,#291,#296,.T.);
#298=ORIENTED_EDGE('',*,*,#297,.F.);
#299=CARTESIAN_POINT('',(-2.0,1.959591794226543,-0.400000000000000));
#300=VERTEX_POINT('',#299);
#301=CARTESIAN_POINT('',(-2.000000000000001,0.0,0.0));
#302=DIRECTION('',(1.0,0.0,0.0));
#303=DIRECTION('',(0.0,1.0,0.0));
#304=AXIS2_PLACEMENT_3D('',#301,#302,#303);
#305=CIRCLE('',#304,2.000000000000000);
#306=EDGE_CURVE('',#289,#300,#305,.T.);
#307=ORIENTED_EDGE('',*,*,#306,.T.);
#308=CARTESIAN_POINT('',(-2.000000000000001,2.379049E-017,-0.400000000000000));
#309=DIRECTION('',(0.0,0.0,-1.0));
#310=DIRECTION('',(0.0,-1.0,0.0));
#311=AXIS2_PLACEMENT_3D('',#308,#309,#310);
#312=CIRCLE('',#311,1.959591794226543);
#313=EDGE_CURVE('',#300,#291,#312,.T.);
#314=ORIENTED_EDGE('',*,*,#313,.T.);
#315=EDGE_LOOP('',(#298,#307,#314));
#316=FACE_OUTER_BOUND('',#315,.T.);
#317=ADVANCED_FACE('',(#316),#287,.T.);
#318=CARTESIAN_POINT('',(-2.000000000000001,0.0,0.0));
#319=DIRECTION('',(0.0,0.0,1.0));
#320=DIRECTION('',(1.0,0.0,0.0));
#321=AXIS2_PLACEMENT_3D('',#318,#319,#320);
#322=SPHERICAL_SURFACE('',#321,2.0);
#323=CARTESIAN_POINT('',(-0.040408205773458,-2.399729E-016,0.400000000000000));
#324=VERTEX_POINT('',#323);
#325=CARTESIAN_POINT('',(-2.000000000000001,0.0,0.0));
#326=DIRECTION('',(0.0,-1.0,0.0));
#327=DIRECTION('',(0.0,0.0,1.0));
#328=AXIS2_PLACEMENT_3D('',#325,#326,#327);
#329=CIRCLE('',#328,2.0);
#330=EDGE_CURVE('',#324,#256,#329,.T.);
#331=ORIENTED_EDGE('',*,*,#330,.F.);
#332=CARTESIAN_POINT('',(-2.000000000000001,0.0,0.400000000000000));
#333=DIRECTION('',(0.0,0.0,1.0));
#334=DIRECTION('',(0.0,1.0,0.0));
#335=AXIS2_PLACEMENT_3D('',#332,#333,#334);
#336=CIRCLE('',#335,1.959591794226543);
#337=EDGE_CURVE('',#324,#265,#336,.T.);
#338=ORIENTED_EDGE('',*,*,#337,.T.);
#339=ORIENTED_EDGE('',*,*,#271,.T.);
#340=EDGE_LOOP('',(#331,#338,#339));
#341=FACE_OUTER_BOUND('',#340,.T.);
#342=ADVANCED_FACE('',(#341),#322,.T.);
#343=CARTESIAN_POINT('',(-2.0,-6.938894E-017,-8.232860E-017));
#344=DIRECTION('',(1.0,0.0,0.0));
#345=DIRECTION('',(0.0,0.0,-1.0));
#346=AXIS2_PLACEMENT_3D('',#343,#344,#345);
#347=PLANE('',#346);
#348=ORIENTED_EDGE('',*,*,#253,.T.);
#349=CARTESIAN_POINT('',(-2.0,-1.959591794226543,-0.400000000000000));
#350=VERTEX_POINT('',#349);
#351=CARTESIAN_POINT('',(-2.000000000000001,0.0,0.0));
#352=DIRECTION('',(1.0,0.0,0.0));
#353=DIRECTION('',(0.0,1.0,0.0));
#354=AXIS2_PLACEMENT_3D('',#351,#352,#353);
#355=CIRCLE('',#354,2.000000000000000);
#356=EDGE_CURVE('',#239,#350,#355,.T.);
#357=ORIENTED_EDGE('',*,*,#356,.T.);
#358=CARTESIAN_POINT('',(-2.0,-1.959591794226543,-0.400000000000000));
#359=DIRECTION('',(0.0,1.0,0.0));
#360=VECTOR('',#359,3.919183588453085);
#361=LINE('',#358,#360);
#362=EDGE_CURVE('',#350,#300,#361,.T.);
#363=ORIENTED_EDGE('',*,*,#362,.T.);
#364=CARTESIAN_POINT('',(-2.000000000000001,0.0,0.0));
#365=DIRECTION('',(1.0,0.0,0.0));
#366=DIRECTION('',(0.0,1.0,0.0));
#367=AXIS2_PLACEMENT_3D('',#364,#365,#366);
#368=CIRCLE('',#367,2.000000000000000);
#369=EDGE_CURVE('',#300,#230,#368,.T.);
#370=ORIENTED_EDGE('',*,*,#369,.T.);
#371=ORIENTED_EDGE('',*,*,#278,.T.);
#372=CARTESIAN_POINT('',(-2.0,1.959591794226543,0.400000000000000));
#373=DIRECTION('',(0.0,-1.0,0.0));
#374=VECTOR('',#373,3.919183588453086);
#375=LINE('',#372,#374);
#376=EDGE_CURVE('',#265,#247,#375,.T.);
#377=ORIENTED_EDGE('',*,*,#376,.T.);
#378=EDGE_LOOP('',(#348,#357,#363,#370,#371,#377));
#379=FACE_OUTER_BOUND('',#378,.T.);
#380=ADVANCED_FACE('',(#379),#347,.T.);
#381=CARTESIAN_POINT('',(0.0,-3.500000000000000,-0.400000000000000));
#382=DIRECTION('',(0.0,0.0,-1.0));
#383=DIRECTION('',(-1.0,0.0,0.0));
#384=AXIS2_PLACEMENT_3D('',#381,#382,#383);
#385=PLANE('',#384);
#386=ORIENTED_EDGE('',*,*,#313,.F.);
#387=ORIENTED_EDGE('',*,*,#362,.F.);
#388=CARTESIAN_POINT('',(-2.000000000000001,2.379049E-017,-0.400000000000000));
#389=DIRECTION('',(0.0,0.0,-1.0));
#390=DIRECTION('',(0.0,-1.0,0.0));
#391=AXIS2_PLACEMENT_3D('',#388,#389,#390);
#392=CIRCLE('',#391,1.959591794226543);
#393=EDGE_CURVE('',#291,#350,#392,.T.);
#394=ORIENTED_EDGE('',*,*,#393,.F.);
#395=EDGE_LOOP('',(#386,#387,#394));
#396=FACE_OUTER_BOUND('',#395,.T.);
#397=ADVANCED_FACE('',(#396),#385,.F.);
#398=CARTESIAN_POINT('',(0.0,3.500000000000000,0.400000000000000));
#399=DIRECTION('',(0.0,0.0,1.0));
#400=DIRECTION('',(1.0,0.0,0.0));
#401=AXIS2_PLACEMENT_3D('',#398,#399,#400);
#402=PLANE('',#401);
#403=CARTESIAN_POINT('',(-2.000000000000001,0.0,0.400000000000000));
#404=DIRECTION('',(0.0,0.0,1.0));
#405=DIRECTION('',(0.0,1.0,0.0));
#406=AXIS2_PLACEMENT_3D('',#403,#404,#405);
#407=CIRCLE('',#406,1.959591794226543);
#408=EDGE_CURVE('',#247,#324,#407,.T.);
#409=ORIENTED_EDGE('',*,*,#408,.F.);
#410=ORIENTED_EDGE('',*,*,#376,.F.);
#411=ORIENTED_EDGE('',*,*,#337,.F.);
#412=EDGE_LOOP('',(#409,#410,#411));
#413=FACE_OUTER_BOUND('',#412,.T.);
#414=ADVANCED_FACE('',(#413),#402,.F.);
#415=CARTESIAN_POINT('',(-2.000000000000001,0.0,0.0));
#416=DIRECTION('',(0.0,0.0,1.0));
#417=DIRECTION('',(1.0,0.0,0.0));
#418=AXIS2_PLACEMENT_3D('',#415,#416,#417);
#419=SPHERICAL_SURFACE('',#418,2.0);
#420=ORIENTED_EDGE('',*,*,#330,.T.);
#421=ORIENTED_EDGE('',*,*,#262,.T.);
#422=ORIENTED_EDGE('',*,*,#408,.T.);
#423=EDGE_LOOP('',(#420,#421,#422));
#424=FACE_OUTER_BOUND('',#423,.T.);
#425=ADVANCED_FACE('',(#424),#419,.T.);
#426=CARTESIAN_POINT('',(-2.000000000000001,0.0,0.0));
#427=DIRECTION('',(0.0,0.0,1.0));
#428=DIRECTION('',(1.0,0.0,0.0));
#429=AXIS2_PLACEMENT_3D('',#426,#427,#428);
#430=SPHERICAL_SURFACE('',#429,2.0);
#431=ORIENTED_EDGE('',*,*,#297,.T.);
#432=ORIENTED_EDGE('',*,*,#393,.T.);
#433=CARTESIAN_POINT('',(-2.000000000000001,0.0,0.0));
#434=DIRECTION('',(1.0,0.0,0.0));
#435=DIRECTION('',(0.0,1.0,0.0));
#436=AXIS2_PLACEMENT_3D('',#433,#434,#435);
#437=CIRCLE('',#436,2.000000000000000);
#438=EDGE_CURVE('',#350,#289,#437,.T.);
#439=ORIENTED_EDGE('',*,*,#438,.T.);
#440=EDGE_LOOP('',(#431,#432,#439));
#441=FACE_OUTER_BOUND('',#440,.T.);
#442=ADVANCED_FACE('',(#441),#430,.T.);
#443=CARTESIAN_POINT('',(-6.350000000000005,0.0,0.0));
#444=DIRECTION('',(1.0,0.0,0.0));
#445=DIRECTION('',(0.0,1.0,0.0));
#446=AXIS2_PLACEMENT_3D('',#443,#444,#445);
#447=CYLINDRICAL_SURFACE('',#446,2.000000000000000);
#448=ORIENTED_EDGE('',*,*,#235,.T.);
#449=ORIENTED_EDGE('',*,*,#369,.F.);
#450=ORIENTED_EDGE('',*,*,#306,.F.);
#451=ORIENTED_EDGE('',*,*,#438,.F.);
#452=ORIENTED_EDGE('',*,*,#356,.F.);
#453=ORIENTED_EDGE('',*,*,#244,.T.);
#454=CARTESIAN_POINT('',(-12.700000000000010,0.0,0.0));
#455=DIRECTION('',(1.0,0.0,0.0));
#456=DIRECTION('',(0.0,1.0,0.0));
#457=AXIS2_PLACEMENT_3D('',#454,#455,#456);
#458=CIRCLE('',#457,1.999999999999999);
#459=EDGE_CURVE('',#69,#52,#458,.T.);
#460=ORIENTED_EDGE('',*,*,#459,.T.);
#461=EDGE_LOOP('',(#448,#449,#450,#451,#452,#453,#460));
#462=FACE_OUTER_BOUND('',#461,.T.);
#463=ADVANCED_FACE('',(#462),#447,.T.);
#464=CARTESIAN_POINT('',(-22.500000000000000,0.600000000000002,0.0));
#465=DIRECTION('',(-1.0,0.0,0.0));
#466=DIRECTION('',(0.0,0.0,1.0));
#467=AXIS2_PLACEMENT_3D('',#464,#465,#466);
#468=PLANE('',#467);
#469=ORIENTED_EDGE('',*,*,#212,.F.);
#470=CARTESIAN_POINT('',(-22.500000000000004,0.0,0.0));
#471=DIRECTION('',(1.0,0.0,0.0));
#472=DIRECTION('',(0.0,1.0,0.0));
#473=AXIS2_PLACEMENT_3D('',#470,#471,#472);
#474=CIRCLE('',#473,1.200000000000004);
#475=EDGE_CURVE('',#206,#198,#474,.T.);
#476=ORIENTED_EDGE('',*,*,#475,.F.);
#477=EDGE_LOOP('',(#469,#476));
#478=FACE_OUTER_BOUND('',#477,.T.);
#479=ADVANCED_FACE('',(#478),#468,.T.);
#480=CARTESIAN_POINT('',(-22.350000000000009,0.0,0.0));
#481=DIRECTION('',(1.0,0.0,0.0));
#482=DIRECTION('',(0.0,1.0,0.0));
#483=AXIS2_PLACEMENT_3D('',#480,#481,#482);
#484=CONICAL_SURFACE('',#483,1.350000000000003,45.000000000000448);
#485=ORIENTED_EDGE('',*,*,#203,.T.);
#486=CARTESIAN_POINT('',(-22.200000000000010,0.0,0.0));
#487=DIRECTION('',(1.0,0.0,0.0));
#488=DIRECTION('',(0.0,1.0,0.0));
#489=AXIS2_PLACEMENT_3D('',#486,#487,#488);
#490=CIRCLE('',#489,1.500000000000002);
#491=EDGE_CURVE('',#174,#166,#490,.T.);
#492=ORIENTED_EDGE('',*,*,#491,.F.);
#493=ORIENTED_EDGE('',*,*,#218,.T.);
#494=ORIENTED_EDGE('',*,*,#475,.T.);
#495=EDGE_LOOP('',(#485,#492,#493,#494));
#496=FACE_OUTER_BOUND('',#495,.T.);
#497=ADVANCED_FACE('',(#496),#484,.T.);
#498=CARTESIAN_POINT('',(-20.100000000000009,0.0,0.0));
#499=DIRECTION('',(1.0,0.0,0.0));
#500=DIRECTION('',(0.0,1.0,0.0));
#501=AXIS2_PLACEMENT_3D('',#498,#499,#500);
#502=CYLINDRICAL_SURFACE('',#501,1.500000000000003);
#503=ORIENTED_EDGE('',*,*,#171,.T.);
#504=CARTESIAN_POINT('',(-18.000000000000007,0.0,0.0));
#505=DIRECTION('',(1.0,0.0,0.0));
#506=DIRECTION('',(0.0,1.0,0.0));
#507=AXIS2_PLACEMENT_3D('',#504,#505,#506);
#508=CIRCLE('',#507,1.500000000000003);
#509=EDGE_CURVE('',#142,#134,#508,.T.);
#510=ORIENTED_EDGE('',*,*,#509,.F.);
#511=ORIENTED_EDGE('',*,*,#186,.T.);
#512=ORIENTED_EDGE('',*,*,#491,.T.);
#513=EDGE_LOOP('',(#503,#510,#511,#512));
#514=FACE_OUTER_BOUND('',#513,.T.);
#515=ADVANCED_FACE('',(#514),#502,.T.);
#516=CARTESIAN_POINT('',(-17.966506350946126,0.0,0.0));
#517=DIRECTION('',(-1.0,0.0,0.0));
#518=DIRECTION('',(0.0,1.0,0.0));
#519=AXIS2_PLACEMENT_3D('',#516,#517,#518);
#520=CONICAL_SURFACE('',#519,1.375000000000002,75.000000000003268);
#521=ORIENTED_EDGE('',*,*,#139,.T.);
#522=CARTESIAN_POINT('',(-17.933012701892242,0.0,0.0));
#523=DIRECTION('',(1.0,0.0,0.0));
#524=DIRECTION('',(0.0,1.0,0.0));
#525=AXIS2_PLACEMENT_3D('',#522,#523,#524);
#526=CIRCLE('',#525,1.250000000000002);
#527=EDGE_CURVE('',#102,#92,#526,.T.);
#528=ORIENTED_EDGE('',*,*,#527,.F.);
#529=ORIENTED_EDGE('',*,*,#154,.T.);
#530=ORIENTED_EDGE('',*,*,#509,.T.);
#531=EDGE_LOOP('',(#521,#528,#529,#530));
#532=FACE_OUTER_BOUND('',#531,.T.);
#533=ADVANCED_FACE('',(#532),#520,.T.);
#534=CARTESIAN_POINT('',(-15.466506350946126,0.0,0.0));
#535=DIRECTION('',(1.0,0.0,0.0));
#536=DIRECTION('',(0.0,1.0,0.0));
#537=AXIS2_PLACEMENT_3D('',#534,#535,#536);
#538=CYLINDRICAL_SURFACE('',#537,1.250000000000002);
#539=ORIENTED_EDGE('',*,*,#99,.T.);
#540=CARTESIAN_POINT('',(-13.000000000000007,0.0,0.0));
#541=DIRECTION('',(1.0,0.0,0.0));
#542=DIRECTION('',(0.0,1.0,0.0));
#543=AXIS2_PLACEMENT_3D('',#540,#541,#542);
#544=CIRCLE('',#543,1.250000000000002);
#545=EDGE_CURVE('',#111,#94,#544,.T.);
#546=ORIENTED_EDGE('',*,*,#545,.F.);
#547=ORIENTED_EDGE('',*,*,#116,.T.);
#548=ORIENTED_EDGE('',*,*,#527,.T.);
#549=EDGE_LOOP('',(#539,#546,#547,#548));
#550=FACE_OUTER_BOUND('',#549,.T.);
#551=ADVANCED_FACE('',(#550),#538,.T.);
#552=CARTESIAN_POINT('',(-13.000000000000007,1.475000000000001,0.0));
#553=DIRECTION('',(-1.0,0.0,0.0));
#554=DIRECTION('',(0.0,0.0,1.0));
#555=AXIS2_PLACEMENT_3D('',#552,#553,#554);
#556=PLANE('',#555);
#557=ORIENTED_EDGE('',*,*,#66,.F.);
#558=CARTESIAN_POINT('',(-13.000000000000007,0.0,0.0));
#559=DIRECTION('',(1.0,0.0,0.0));
#560=DIRECTION('',(0.0,1.0,0.0));
#561=AXIS2_PLACEMENT_3D('',#558,#559,#560);
#562=CIRCLE('',#561,1.699999999999999);
#563=EDGE_CURVE('',#60,#50,#562,.T.);
#564=ORIENTED_EDGE('',*,*,#563,.F.);
#565=EDGE_LOOP('',(#557,#564));
#566=FACE_OUTER_BOUND('',#565,.T.);
#567=ORIENTED_EDGE('',*,*,#123,.T.);
#568=ORIENTED_EDGE('',*,*,#545,.T.);
#569=EDGE_LOOP('',(#567,#568));
#570=FACE_BOUND('',#569,.T.);
#571=ADVANCED_FACE('',(#566,#570),#556,.T.);
#572=CARTESIAN_POINT('',(-12.850000000000009,0.0,0.0));
#573=DIRECTION('',(1.0,0.0,0.0));
#574=DIRECTION('',(0.0,1.0,0.0));
#575=AXIS2_PLACEMENT_3D('',#572,#573,#574);
#576=CONICAL_SURFACE('',#575,1.849999999999999,45.000000000000199);
#577=ORIENTED_EDGE('',*,*,#57,.T.);
#578=ORIENTED_EDGE('',*,*,#459,.F.);
#579=ORIENTED_EDGE('',*,*,#74,.T.);
#580=ORIENTED_EDGE('',*,*,#563,.T.);
#581=EDGE_LOOP('',(#577,#578,#579,#580));
#582=FACE_OUTER_BOUND('',#581,.T.);
#583=ADVANCED_FACE('',(#582),#576,.T.);
#584=CLOSED_SHELL('',(#85,#127,#159,#191,#223,#282,#317,#342,#380,#397,#414,#425,#442,#463,#479,#497,#515,#533,#551,#571,#583));
#585=MANIFOLD_SOLID_BREP('',#584);
#586=COLOUR_RGB('Zink',0.678431391716003,0.768627464771271,0.811764717102051);
#587=FILL_AREA_STYLE_COLOUR('Zink',#586);
#588=FILL_AREA_STYLE('Zink',(#587));
#589=SURFACE_STYLE_FILL_AREA(#588);
#590=SURFACE_SIDE_STYLE('Zink',(#589));
#591=SURFACE_STYLE_USAGE(.BOTH.,#590);
#592=PRESENTATION_STYLE_ASSIGNMENT((#591));
#593=STYLED_ITEM('',(#592),#585);
#594=MECHANICAL_DESIGN_GEOMETRIC_PRESENTATION_REPRESENTATION('',(#593),#36);
#595=ADVANCED_BREP_SHAPE_REPRESENTATION('ABSR',(#585),#36);
#596=SHAPE_REPRESENTATION_RELATIONSHIP('SRR','None',#595,#41);
ENDSEC;
END-ISO-10303-21;
